MyTetra Share
Делитесь знаниями!
О, смотри-ка какое хорошее место. Дайте два!
Дурак и молния
19.05.2017
17:48
Раздел: Музыка - guitar - Аккорды - КИШ

Король и Шут - Дурак и молния

Бас в куплете, от начала:


A G# C#m A

G||-------------------------|--------------------------|--------4-----------------|

D||-------------------------|--------6--4--------4--6--|-----------6--------------|

A||----------------4--6--7--|-----3--------4--7--------|--4--7-----------4--6--7--|

E||----4--7--4--5-----------|--4-----------------------|--------------5-----------|



A G# C#m

Грохочет гром, сверкает молния в ночи,

А на холме стоит безумец и кричит:

"Сейчас поймаю тебя в сумку, и сверкать ты будешь в ней.

Мне так хочется, чтоб стала ты моей".


A G# C#m

То парень к лесу мчится,

F#m G# C#m

То к полю, то к ручью,

A G# C#m

Все поймать стремится

A H C#m

Мол-ни-ю.


Весь сельский люд смотреть на это выходил,

Как на холме безумец бегал и чудил.

Он, видно, в ссоре с головою, видно, сам себе он враг,

Надо ж выдумать такое - во дурак.


Припев


H G#m

Утром по сельской дороге

A H

Медленно шел ночной герой,

E C#m

Весь лохматый и седой,

A G#

И улыбался.


Соло:

A G# C#m F#m G#

E|-----------12-12-12-11-11---|--12---9---------14------14--|

H|----------------------------|-----------------------------|

G|----------------------------|-------------14------13------|


C#m A G# C#m A G#

E|--11---12-----12--12--14--14--|--16---12-----17----17--|--16----------------|

H|------------------------------|------------------------|--------------------|

G|------------------------------|------------------------|--------------------|


H A# D#m

То парень к лесу мчится,

G#m A# D#m

То к полю, то к ручью,

H A# D#m

Все поймать стремится

H C# D#m

Мол-ни-ю.

Так же в этом разделе:
 
MyTetra Share v.0.46
Яндекс индекс цитирования